  0
SECTION
  2
HEADER
  9
$ACADVER
  1
AC1009
  9
$INSBASE
 10
0.0
 20
0.0
 30
0.0
  9
$EXTMIN
 10
43.36367604837
 20
8.688487732035921
 30
0.0
  9
$EXTMAX
 10
111.5023921541948
 20
41.42407855653174
 30
0.0
  9
$LIMMIN
 10
0.0
 20
0.0
  9
$LIMMAX
 10
105.0
 20
148.5
  9
$ORTHOMODE
 70
     1
  9
$REGENMODE
 70
     1
  9
$FILLMODE
 70
     1
  9
$QTEXTMODE
 70
     0
  9
$MIRRTEXT
 70
     0
  9
$DRAGMODE
 70
     2
  9
$LTSCALE
 40
0.5
  9
$OSMODE
 70
    37
  9
$ATTMODE
 70
     1
  9
$TEXTSIZE
 40
1.75
  9
$TRACEWID
 40
0.05
  9
$TEXTSTYLE
  7
STANDARD
  9
$CLAYER
  8
0
  9
$CELTYPE
  6
BYLAYER
  9
$CECOLOR
 62
   256
  9
$DIMSCALE
 40
0.5
  9
$DIMASZ
 40
2.5
  9
$DIMEXO
 40
1.0
  9
$DIMDLI
 40
7.0
  9
$DIMRND
 40
0.0
  9
$DIMDLE
 40
0.0
  9
$DIMEXE
 40
2.0
  9
$DIMTP
 40
0.1
  9
$DIMTM
 40
0.1
  9
$DIMTXT
 40
3.5
  9
$DIMCEN
 40
0.0
  9
$DIMTSZ
 40
0.0
  9
$DIMTOL
 70
     0
  9
$DIMLIM
 70
     0
  9
$DIMTIH
 70
     0
  9
$DIMTOH
 70
     0
  9
$DIMSE1
 70
     1
  9
$DIMSE2
 70
     1
  9
$DIMTAD
 70
     0
  9
$DIMZIN
 70
     0
  9
$DIMBLK
  1

  9
$DIMASO
 70
     1
  9
$DIMSHO
 70
     1
  9
$DIMPOST
  1

  9
$DIMAPOST
  1

  9
$DIMALT
 70
     0
  9
$DIMALTD
 70
     2
  9
$DIMALTF
 40
0.0393701
  9
$DIMLFAC
 40
2.0
  9
$DIMTOFL
 70
     1
  9
$DIMTVP
 40
0.0
  9
$DIMTIX
 70
     0
  9
$DIMSOXD
 70
     0
  9
$DIMSAH
 70
     1
  9
$DIMBLK1
  1
GENAXEH
  9
$DIMBLK2
  1

  9
$DIMSTYLE
  2
GEN-ANSI-AXE-H
  9
$DIMCLRD
 70
   256
  9
$DIMCLRE
 70
   256
  9
$DIMCLRT
 70
     2
  9
$DIMTFAC
 40
0.71
  9
$DIMGAP
 40
0.6
  9
$LUNITS
 70
     2
  9
$LUPREC
 70
     2
  9
$SKETCHINC
 40
0.1
  9
$FILLETRAD
 40
1.25
  9
$AUNITS
 70
     0
  9
$AUPREC
 70
     0
  9
$MENU
  1

  9
$ELEVATION
 40
0.0
  9
$PELEVATION
 40
0.0
  9
$THICKNESS
 40
0.0
  9
$LIMCHECK
 70
     0
  9
$BLIPMODE
 70
     0
  9
$CHAMFERA
 40
1.25
  9
$CHAMFERB
 40
1.25
  9
$SKPOLY
 70
     0
  9
$TDCREATE
 40
2450178.374308912
  9
$TDUPDATE
 40
2450262.360077199
  9
$TDINDWG
 40
0.0739674769
  9
$TDUSRTIMER
 40
0.0739674769
  9
$USRTIMER
 70
     1
  9
$ANGBASE
 50
0.0
  9
$ANGDIR
 70
     0
  9
$PDMODE
 70
     3
  9
$PDSIZE
 40
0.0
  9
$PLINEWID
 40
0.0
  9
$COORDS
 70
     1
  9
$SPLFRAME
 70
     0
  9
$SPLINETYPE
 70
     6
  9
$SPLINESEGS
 70
     8
  9
$ATTDIA
 70
     1
  9
$ATTREQ
 70
     1
  9
$HANDLING
 70
     1
  9
$HANDSEED
  5
4E
  9
$SURFTAB1
 70
     6
  9
$SURFTAB2
 70
     6
  9
$SURFTYPE
 70
     6
  9
$SURFU
 70
     6
  9
$SURFV
 70
     6
  9
$UCSNAME
  2

  9
$UCSORG
 10
0.0
 20
0.0
 30
0.0
  9
$UCSXDIR
 10
1.0
 20
0.0
 30
0.0
  9
$UCSYDIR
 10
0.0
 20
1.0
 30
0.0
  9
$PUCSNAME
  2

  9
$PUCSORG
 10
0.0
 20
0.0
 30
0.0
  9
$PUCSXDIR
 10
1.0
 20
0.0
 30
0.0
  9
$PUCSYDIR
 10
0.0
 20
1.0
 30
0.0
  9
$USERI1
 70
     0
  9
$USERI2
 70
     0
  9
$USERI3
 70
     0
  9
$USERI4
 70
     0
  9
$USERI5
 70
     0
  9
$USERR1
 40
0.0
  9
$USERR2
 40
0.0
  9
$USERR3
 40
0.0
  9
$USERR4
 40
0.0
  9
$USERR5
 40
0.0
  9
$WORLDVIEW
 70
     1
  9
$SHADEDGE
 70
     3
  9
$SHADEDIF
 70
    70
  9
$TILEMODE
 70
     1
  9
$MAXACTVP
 70
    16
  9
$PINSBASE
 10
0.0
 20
0.0
 30
0.0
  9
$PLIMCHECK
 70
     0
  9
$PEXTMIN
 10
1.000000000000000E+20
 20
1.000000000000000E+20
 30
1.000000000000000E+20
  9
$PEXTMAX
 10
-1.000000000000000E+20
 20
-1.000000000000000E+20
 30
-1.000000000000000E+20
  9
$PLIMMIN
 10
0.0
 20
0.0
  9
$PLIMMAX
 10
12.0
 20
9.0
  9
$UNITMODE
 70
     0
  9
$VISRETAIN
 70
     0
  9
$PLINEGEN
 70
     0
  9
$PSLTSCALE
 70
     1
  9
$TREEDEPTH
 70
  3020
  9
$DWGCODEPAGE
  3
dummy
  0
ENDSEC
  0
SECTION
  2
TABLES
  0
TABLE
  2
VPORT
 70
     2
  0
VPORT
  2
*ACTIVE
 70
     0
 10
0.0
 20
0.0
 11
1.0
 21
1.0
 12
115.383158661852
 22
39.93655418537066
 13
0.0
 23
0.0
 14
0.5
 24
0.5
 15
5.0
 25
5.0
 16
0.0
 26
0.0
 36
1.0
 17
0.0
 27
0.0
 37
0.0
 40
183.0179593967829
 41
1.451162790697674
 42
50.0
 43
0.0
 44
0.0
 50
0.0
 51
0.0
 71
     0
 72
   100
 73
     1
 74
     0
 75
     0
 76
     0
 77
     0
 78
     0
  0
ENDTAB
  0
TABLE
  2
LTYPE
 70
     2
  0
LTYPE
  2
CONTINUOUS
 70
    64
  3
Solid line
 72
    65
 73
     0
 40
0.0
  0
LTYPE
  2
AIT$STRICHGR
 70
    64
  3
 -- -- -- -- --
 72
    65
 73
     2
 40
6.25
 49
5.0
 49
-1.25
  0
ENDTAB
  0
TABLE
  2
LAYER
 70
     4
  0
LAYER
  2
0
 70
     0
 62
     7
  6
CONTINUOUS
  0
LAYER
  2
ITEM_GSTRG
 70
    64
 62
     6
  6
AIT$STRICHGR
  0
LAYER
  2
ITEM_HILFE
 70
    64
 62
     3
  6
CONTINUOUS
  0
LAYER
  2
ITEM_50
 70
    64
 62
     7
  6
CONTINUOUS
  0
ENDTAB
  0
TABLE
  2
STYLE
 70
     1
  0
STYLE
  2
STANDARD
 70
     0
 40
0.0
 41
1.0
 50
0.0
 71
     0
 42
1.75
  3
GENISO.SHX
  4

  0
ENDTAB
  0
TABLE
  2
VIEW
 70
     0
  0
ENDTAB
  0
TABLE
  2
UCS
 70
     0
  0
ENDTAB
  0
TABLE
  2
APPID
 70
    15
  0
APPID
  2
ACAD
 70
    64
  0
APPID
  2
GENIUS_GENODEF_13
 70
    64
  0
APPID
  2
GENIUS_GENOBJ-N-FIL_13
 70
    64
  0
ENDTAB
  0
TABLE
  2
DIMSTYLE
 70
     1
  0
DIMSTYLE
  2
GEN-ANSI-AXE-H
 70
     0
  3

  4

  5

  6
GENAXEH
  7

 40
0.5
 41
2.5
 42
1.0
 43
7.0
 44
2.0
 45
0.0
 46
0.0
 47
0.1
 48
0.1
140
3.5
141
0.0
142
0.0
143
0.0393701
144
2.0
145
0.0
146
0.71
147
0.6
 71
     0
 72
     0
 73
     0
 74
     0
 75
     1
 76
     1
 77
     0
 78
     8
170
     0
171
     2
172
     1
173
     1
174
     0
175
     0
176
   256
177
   256
178
     2
  0
ENDTAB
  0
ENDSEC
  0
SECTION
  2
BLOCKS
  0
ENDSEC
  0
SECTION
  2
ENTITIES
  0
LINE
  8
ITEM_50
  5
1D
 10
53.46367604836999
 20
38.92407855653173
 30
0.0
 11
58.76367604837
 21
38.92407855653173
 31
0.0
  0
LINE
  8
ITEM_50
  5
1F
 10
53.46367604837005
 20
14.92407855653171
 30
0.0
 11
58.76367604837003
 21
14.92407855653176
 31
0.0
  0
LINE
  8
ITEM_50
  5
20
 10
52.96367604836999
 20
41.42407855653174
 30
0.0
 11
52.96367604836999
 21
12.42407855653176
 31
0.0
  0
LINE
  8
ITEM_50
  5
21
 10
46.76367604836997
 20
41.42407855653174
 30
0.0
 11
46.76367604837039
 21
12.42407855653173
 31
0.0
  0
LINE
  8
ITEM_50
  5
22
 10
43.76367604837
 20
38.92407855653173
 30
0.0
 11
43.76367604837013
 21
14.92407855653173
 31
0.0
  0
LINE
  8
ITEM_50
  5
23
 10
43.36367604837
 20
33.17407855653023
 30
0.0
 11
43.36367604837005
 21
20.67407855653023
 31
0.0
  0
LINE
  8
ITEM_50
  5
24
 10
46.76367604836999
 20
12.42407855653174
 30
0.0
 11
52.96367604837001
 21
12.42407855653176
 31
0.0
  0
LINE
  8
ITEM_50
  5
25
 10
43.76367604837006
 20
14.92407855653174
 30
0.0
 11
46.26367604837002
 21
14.92407855653171
 31
0.0
  0
ARC
  8
ITEM_50
  5
26
 10
46.26367604837002
 20
14.42407855653171
 30
0.0
 40
0.5
 50
0.0
 51
89.99999999999971
1001
GENIUS_GENODEF_13
1002
{
1000
HIER
1070
     0
1002
}
1002
{
1000
MANEDIT
1070
     0
1002
}
1002
{
1000
NOSEL
1070
     0
1002
}
1002
{
1000
BEHIND
1070
     0
1002
}
1002
{
1000
REACTOR
1002
}
1001
GENIUS_GENOBJ-N-FIL_13
1002
{
1000
OWNER
1000
GEN
1002
}
  0
LINE
  8
ITEM_50
  5
35
 10
43.36367604837005
 20
20.67407855653023
 30
0.0
 11
43.76367604837006
 21
20.67407855653022
 31
0.0
  0
POINT
  8
ITEM_HILFE
  5
36
 10
49.86367604836999
 20
11.92407855653176
 30
0.0
  0
POINT
  8
ITEM_HILFE
  5
38
 10
49.86367604836999
 20
14.92407855653176
 30
0.0
  0
ARC
  8
ITEM_50
  5
39
 10
53.46367604837005
 20
14.42407855653171
 30
0.0
 40
0.5
 50
90.00000000000014
 51
180.0
1001
GENIUS_GENODEF_13
1002
{
1000
HIER
1070
     0
1002
}
1002
{
1000
MANEDIT
1070
     0
1002
}
1002
{
1000
NOSEL
1070
     0
1002
}
1002
{
1000
BEHIND
1070
     0
1002
}
1002
{
1000
REACTOR
1002
}
1001
GENIUS_GENOBJ-N-FIL_13
1002
{
1000
OWNER
1000
GEN
1002
}
  0
LINE
  8
ITEM_50
  5
3A
 10
46.76367604836997
 20
41.42407855653174
 30
0.0
 11
52.96367604836999
 21
41.42407855653174
 31
0.0
  0
LINE
  8
ITEM_50
  5
3B
 10
43.36367604837
 20
33.17407855653023
 30
0.0
 11
43.76367604837001
 21
33.17407855653023
 31
0.0
  0
LINE
  8
ITEM_50
  5
3C
 10
43.76367604837
 20
38.92407855653173
 30
0.0
 11
46.26367604837
 21
38.92407855653173
 31
0.0
  0
ARC
  8
ITEM_50
  5
3D
 10
46.26367604837
 20
39.42407855653174
 30
0.0
 40
0.5
 50
270.0
 51
0.0000000000006488
1001
GENIUS_GENODEF_13
1002
{
1000
HIER
1070
     0
1002
}
1002
{
1000
MANEDIT
1070
     0
1002
}
1002
{
1000
NOSEL
1070
     0
1002
}
1002
{
1000
BEHIND
1070
     0
1002
}
1002
{
1000
REACTOR
1002
}
1001
GENIUS_GENOBJ-N-FIL_13
1002
{
1000
OWNER
1000
GEN
1002
}
  0
ARC
  8
ITEM_50
  5
3E
 10
53.46367604836999
 20
39.42407855653174
 30
0.0
 40
0.5
 50
180.0
 51
270.0
1001
GENIUS_GENODEF_13
1002
{
1000
HIER
1070
     0
1002
}
1002
{
1000
MANEDIT
1070
     0
1002
}
1002
{
1000
NOSEL
1070
     0
1002
}
1002
{
1000
BEHIND
1070
     0
1002
}
1002
{
1000
REACTOR
1002
}
1001
GENIUS_GENOBJ-N-FIL_13
1002
{
1000
OWNER
1000
GEN
1002
}
  0
ARC
  8
ITEM_GSTRG
  5
3F
 10
97.0023921541949
 20
26.92407855653175
 30
0.0
 40
14.49999999999998
 50
235.8515756550529
 51
304.148424344947
  0
CIRCLE
  8
ITEM_50
  5
42
 10
97.0023921541949
 20
26.92407855653175
 30
0.0
 40
11.99999999999998
  0
ARC
  8
ITEM_50
  5
43
 10
97.0023921541949
 20
26.92407855653175
 30
0.0
 40
14.49999999999998
 50
304.148424344947
 51
235.8515756550529
  0
LINE
  8
ITEM_50
  5
44
 10
58.76367604837
 20
38.92407855653173
 30
0.0
 11
58.76367604837
 21
14.92407855653176
 31
0.0
  0
LINE
  8
ITEM_50
  5
45
 10
59.36367604836994
 20
21.52407855653173
 30
0.0
 11
59.36367604836994
 21
32.32407855653174
 31
0.0
  0
LINE
  8
ITEM_50
  5
46
 10
58.76367604836994
 20
20.92407855653174
 30
0.0
 11
59.36367604836994
 21
21.52407855653173
 31
0.0
  0
LINE
  8
ITEM_50
  5
47
 10
58.76367604836994
 20
32.92407855653173
 30
0.0
 11
59.36367604836994
 21
32.32407855653174
 31
0.0
  0
CIRCLE
  8
ITEM_50
  5
48
 10
97.0023921541949
 20
26.92407855653175
 30
0.0
 40
4.04827045058019
  0
CIRCLE
  8
ITEM_50
  5
49
 10
97.0023921541949
 20
26.92407855653175
 30
0.0
 40
3.049999999998448
  0
CIRCLE
  8
ITEM_50
  5
4A
 10
97.0023921541949
 20
26.92407855653175
 30
0.0
 40
6.25
  0
POINT
  8
ITEM_HILFE
  5
4B
 10
97.0023921541949
 20
14.92407855653176
 30
0.0
  0
ENDSEC
  0
EOF
